ISO-10303-21;
HEADER;
FILE_DESCRIPTION (( 'STEP AP214' ),
    '1' );
FILE_NAME ('396WD1EM1.STEP',
    '2021-07-30T07:12:59',
    ( '' ),
    ( '' ),
    'SwSTEP 2.0',
    'SolidWorks 2020',
    '' );
FILE_SCHEMA (( 'AUTOMOTIVE_DESIGN' ));
ENDSEC;

DATA;
#1 = DIRECTION ( 'NONE',  ( 0.2500000000000002220, -0.9682458365518541443, 0.000000000000000000 ) ) ;
#2 = CARTESIAN_POINT ( 'NONE',  ( -22.50000000000000355, -9.682458365518542109, 1.600000000000000089 ) ) ;
#3 = DIRECTION ( 'NONE',  ( 0.9682458365518541443, 0.2500000000000002220, 0.000000000000000000 ) ) ;
#4 = VECTOR ( 'NONE', #303, 1000.000000000000000 ) ;
#5 = DIRECTION ( 'NONE',  ( 0.000000000000000000, 0.000000000000000000, 1.000000000000000000 ) ) ;
#6 = EDGE_LOOP ( 'NONE', ( #42, #266 ) ) ;
#7 = PLANE ( 'NONE',  #203 ) ;
#8 = DIRECTION ( 'NONE',  ( 0.9682458365518541443, -0.2500000000000002220, -0.000000000000000000 ) ) ;
#9 = DIRECTION ( 'NONE',  ( 0.000000000000000000, 0.000000000000000000, 1.000000000000000000 ) ) ;
#10 = AXIS2_PLACEMENT_3D ( 'NONE', #234, #212, #302 ) ;
#11 = CARTESIAN_POINT ( 'NONE',  ( -3.750000000000000444, -14.52368754827781849, 1.600000000000000089 ) ) ;
#12 = SURFACE_STYLE_FILL_AREA ( #193 ) ;
#13 = FACE_OUTER_BOUND ( 'NONE', #66, .T. ) ;
#14 = DIRECTION ( 'NONE',  ( 0.000000000000000000, 0.000000000000000000, 1.000000000000000000 ) ) ;
#15 = ORIENTED_EDGE ( 'NONE', *, *, #26, .T. ) ;
#16 = AXIS2_PLACEMENT_3D ( 'NONE', #240, #64, #142 ) ;
#17 = CYLINDRICAL_SURFACE ( 'NONE', #37, 9.999999999999998224 ) ;
#18 = ORIENTED_EDGE ( 'NONE', *, *, #73, .F. ) ;
#19 = ADVANCED_FACE ( 'NONE', ( #223, #247 ), #204, .T. ) ;
#20 =( NAMED_UNIT ( * ) SI_UNIT ( $, .STERADIAN. ) SOLID_ANGLE_UNIT ( ) );
#21 =( NAMED_UNIT ( * ) PLANE_ANGLE_UNIT ( ) SI_UNIT ( $, .RADIAN. ) );
#22 = EDGE_CURVE ( 'NONE', #172, #59, #256, .T. ) ;
#23 = ORIENTED_EDGE ( 'NONE', *, *, #99, .F. ) ;
#24 = CIRCLE ( 'NONE', #180, 2.499999999999998668 ) ;
#25 = DIRECTION ( 'NONE',  ( 0.000000000000000000, 0.000000000000000000, 1.000000000000000000 ) ) ;
#26 = EDGE_CURVE ( 'NONE', #59, #126, #246, .T. ) ;
#27 = CARTESIAN_POINT ( 'NONE',  ( 0.000000000000000000, 0.000000000000000000, 1.600000000000000089 ) ) ;
#28 = ORIENTED_EDGE ( 'NONE', *, *, #22, .T. ) ;
#29 = PRESENTATION_LAYER_ASSIGNMENT (  '', '', ( #209 ) ) ;
#30 = CARTESIAN_POINT ( 'NONE',  ( -20.00000000000000000, 0.000000000000000000, 1.600000000000000089 ) ) ;
#31 =( GEOMETRIC_REPRESENTATION_CONTEXT ( 3 ) GLOBAL_UNCERTAINTY_ASSIGNED_CONTEXT ( ( #280 ) ) GLOBAL_UNIT_ASSIGNED_CONTEXT ( ( #149, #21, #69 ) ) REPRESENTATION_CONTEXT ( 'NONE', 'WORKASPACE' ) );
#32 = DIRECTION ( 'NONE',  ( 0.000000000000000000, 0.000000000000000000, 1.000000000000000000 ) ) ;
#33 = CYLINDRICAL_SURFACE ( 'NONE', #230, 2.499999999999998668 ) ;
#34 = PLANE ( 'NONE',  #74 ) ;
#35 = CARTESIAN_POINT ( 'NONE',  ( -25.00000000000000000, 0.000000000000000000, 1.600000000000000089 ) ) ;
#36 = DIRECTION ( 'NONE',  ( 1.000000000000000000, 0.000000000000000000, 0.000000000000000000 ) ) ;
#37 = AXIS2_PLACEMENT_3D ( 'NONE', #208, #259, #116 ) ;
#38 =( GEOMETRIC_REPRESENTATION_CONTEXT ( 3 ) GLOBAL_UNCERTAINTY_ASSIGNED_CONTEXT ( ( #239 ) ) GLOBAL_UNIT_ASSIGNED_CONTEXT ( ( #263, #245, #20 ) ) REPRESENTATION_CONTEXT ( 'NONE', 'WORKASPACE' ) );
#39 = CARTESIAN_POINT ( 'NONE',  ( -30.00000000000000000, 0.000000000000000000, 0.000000000000000000 ) ) ;
#40 = EDGE_CURVE ( 'NONE', #179, #50, #287, .T. ) ;
#41 = LINE ( 'NONE', #67, #306 ) ;
#42 = ORIENTED_EDGE ( 'NONE', *, *, #173, .F. ) ;
#43 = CARTESIAN_POINT ( 'NONE',  ( -25.00000000000000000, 0.000000000000000000, 1.600000000000000089 ) ) ;
#44 = ORIENTED_EDGE ( 'NONE', *, *, #227, .T. ) ;
#45 = EDGE_CURVE ( 'NONE', #305, #218, #279, .T. ) ;
#46 = ADVANCED_BREP_SHAPE_REPRESENTATION ( '396WD1EM1', ( #283, #220 ), #38 ) ;
#47 = CIRCLE ( 'NONE', #101, 2.499999999999998668 ) ;
#48 = CARTESIAN_POINT ( 'NONE',  ( -20.00000000000000000, 0.000000000000000000, 0.000000000000000000 ) ) ;
#49 = COLOUR_RGB ( '',0.000000000000000000, 0.000000000000000000, 0.000000000000000000 ) ;
#50 = VERTEX_POINT ( 'NONE', #2 ) ;
#51 = ADVANCED_FACE ( 'NONE', ( #105 ), #127, .T. ) ;
#52 = DIRECTION ( 'NONE',  ( -0.9682458365518541443, -0.2500000000000002220, 0.000000000000000000 ) ) ;
#53 = DIRECTION ( 'NONE',  ( -0.000000000000000000, -0.000000000000000000, -1.000000000000000000 ) ) ;
#54 = ORIENTED_EDGE ( 'NONE', *, *, #153, .F. ) ;
#55 = ADVANCED_FACE ( 'NONE', ( #202 ), #226, .F. ) ;
#56 = AXIS2_PLACEMENT_3D ( 'NONE', #162, #254, #36 ) ;
#57 = ORIENTED_EDGE ( 'NONE', *, *, #125, .F. ) ;
#58 = MECHANICAL_DESIGN_GEOMETRIC_PRESENTATION_REPRESENTATION (  '', ( #124 ), #31 ) ;
#59 = VERTEX_POINT ( 'NONE', #104 ) ;
#60 = FACE_OUTER_BOUND ( 'NONE', #307, .T. ) ;
#61 = CARTESIAN_POINT ( 'NONE',  ( -27.50000000000000000, 0.000000000000000000, 1.600000000000000089 ) ) ;
#62 = CARTESIAN_POINT ( 'NONE',  ( -22.50000000000000355, 3.061616997868381662E-16, 1.600000000000000089 ) ) ;
#63 = CARTESIAN_POINT ( 'NONE',  ( -22.50000000000000355, 3.061616997868381662E-16, 0.000000000000000000 ) ) ;
#64 = DIRECTION ( 'NONE',  ( 0.000000000000000000, 0.000000000000000000, 1.000000000000000000 ) ) ;
#65 = CARTESIAN_POINT ( 'NONE',  ( -22.50000000000000355, -9.682458365518542109, 0.000000000000000000 ) ) ;
#66 = EDGE_LOOP ( 'NONE', ( #238, #262, #232, #102 ) ) ;
#67 = CARTESIAN_POINT ( 'NONE',  ( -3.750000000000000444, -14.52368754827781849, 0.000000000000000000 ) ) ;
#68 = ORIENTED_EDGE ( 'NONE', *, *, #125, .T. ) ;
#69 =( NAMED_UNIT ( * ) SI_UNIT ( $, .STERADIAN. ) SOLID_ANGLE_UNIT ( ) );
#70 = ORIENTED_EDGE ( 'NONE', *, *, #178, .F. ) ;
#71 = AXIS2_PLACEMENT_3D ( 'NONE', #27, #228, #315 ) ;
#72 = PRESENTATION_LAYER_ASSIGNMENT (  '', '', ( #124 ) ) ;
#73 = EDGE_CURVE ( 'NONE', #172, #151, #80, .T. ) ;
#74 = AXIS2_PLACEMENT_3D ( 'NONE', #235, #9, #113 ) ;
#75 = ORIENTED_EDGE ( 'NONE', *, *, #73, .T. ) ;
#76 = PRODUCT_DEFINITION ( 'UNKNOWN', '', #225, #95 ) ;
#77 = DIRECTION ( 'NONE',  ( -0.000000000000000000, -0.000000000000000000, -1.000000000000000000 ) ) ;
#78 = AXIS2_PLACEMENT_3D ( 'NONE', #85, #213, #186 ) ;
#79 = DIRECTION ( 'NONE',  ( 1.000000000000000000, 0.000000000000000000, 0.000000000000000000 ) ) ;
#80 = LINE ( 'NONE', #182, #97 ) ;
#81 = ORIENTED_EDGE ( 'NONE', *, *, #114, .F. ) ;
#82 = CARTESIAN_POINT ( 'NONE',  ( -20.00000000000000000, 0.000000000000000000, 1.600000000000000089 ) ) ;
#83 = VECTOR ( 'NONE', #52, 1000.000000000000000 ) ;
#84 = LINE ( 'NONE', #112, #150 ) ;
#85 = CARTESIAN_POINT ( 'NONE',  ( -25.00000000000000000, 0.000000000000000000, 1.600000000000000089 ) ) ;
#86 = EDGE_CURVE ( 'NONE', #216, #260, #270, .T. ) ;
#87 = DIRECTION ( 'NONE',  ( -0.000000000000000000, -0.000000000000000000, -1.000000000000000000 ) ) ;
#88 = LINE ( 'NONE', #138, #4 ) ;
#89 = DIRECTION ( 'NONE',  ( 1.000000000000000000, 0.000000000000000000, 0.000000000000000000 ) ) ;
#90 = MECHANICAL_DESIGN_GEOMETRIC_PRESENTATION_REPRESENTATION (  '', ( #209 ), #219 ) ;
#91 = CARTESIAN_POINT ( 'NONE',  ( -3.750000000000000444, 14.52368754827781849, 0.000000000000000000 ) ) ;
#92 = ORIENTED_EDGE ( 'NONE', *, *, #255, .F. ) ;
#93 = CLOSED_SHELL ( 'NONE', ( #168, #103, #19, #311, #51, #55, #201, #136, #294 ) ) ;
#94 = ORIENTED_EDGE ( 'NONE', *, *, #22, .F. ) ;
#95 = PRODUCT_DEFINITION_CONTEXT ( 'detailed design', #141, 'design' ) ;
#96 = ORIENTED_EDGE ( 'NONE', *, *, #108, .F. ) ;
#97 = VECTOR ( 'NONE', #77, 1000.000000000000000 ) ;
#98 = DIRECTION ( 'NONE',  ( 0.000000000000000000, 0.000000000000000000, 1.000000000000000000 ) ) ;
#99 = EDGE_CURVE ( 'NONE', #126, #179, #312, .T. ) ;
#100 = CARTESIAN_POINT ( 'NONE',  ( 0.000000000000000000, 0.000000000000000000, 0.000000000000000000 ) ) ;
#101 = AXIS2_PLACEMENT_3D ( 'NONE', #43, #237, #89 ) ;
#102 = ORIENTED_EDGE ( 'NONE', *, *, #313, .F. ) ;
#103 = ADVANCED_FACE ( 'NONE', ( #296 ), #231, .T. ) ;
#104 = CARTESIAN_POINT ( 'NONE',  ( -3.750000000000000444, 14.52368754827781849, 1.600000000000000089 ) ) ;
#105 = FACE_OUTER_BOUND ( 'NONE', #128, .T. ) ;
#106 = DIRECTION ( 'NONE',  ( 0.000000000000000000, 0.000000000000000000, 1.000000000000000000 ) ) ;
#107 = ORIENTED_EDGE ( 'NONE', *, *, #264, .F. ) ;
#108 = EDGE_CURVE ( 'NONE', #309, #269, #207, .T. ) ;
#109 = ORIENTED_EDGE ( 'NONE', *, *, #26, .F. ) ;
#110 = CARTESIAN_POINT ( 'NONE',  ( -30.00000000000000000, 0.000000000000000000, 1.600000000000000089 ) ) ;
#111 = EDGE_CURVE ( 'NONE', #50, #218, #84, .T. ) ;
#112 = CARTESIAN_POINT ( 'NONE',  ( -22.50000000000000355, -9.682458365518542109, 1.600000000000000089 ) ) ;
#113 = DIRECTION ( 'NONE',  ( 1.000000000000000000, 0.000000000000000000, -0.000000000000000000 ) ) ;
#114 = EDGE_CURVE ( 'NONE', #50, #172, #159, .T. ) ;
#115 = CARTESIAN_POINT ( 'NONE',  ( -3.750000000000000444, -14.52368754827781849, 1.600000000000000089 ) ) ;
#116 = DIRECTION ( 'NONE',  ( -1.000000000000000000, 0.000000000000000000, 0.000000000000000000 ) ) ;
#117 = FILL_AREA_STYLE_COLOUR ( '', #49 ) ;
#118 = UNCERTAINTY_MEASURE_WITH_UNIT (LENGTH_MEASURE( 1.000000000000000082E-05 ), #284, 'distance_accuracy_value', 'NONE');
#119 = CIRCLE ( 'NONE', #10, 2.499999999999998668 ) ;
#120 = ORIENTED_EDGE ( 'NONE', *, *, #276, .T. ) ;
#121 = ORIENTED_EDGE ( 'NONE', *, *, #264, .T. ) ;
#122 = SURFACE_SIDE_STYLE ('',( #288 ) ) ;
#123 = AXIS2_PLACEMENT_3D ( 'NONE', #229, #1, #3 ) ;
#124 = STYLED_ITEM ( 'NONE', ( #222 ), #46 ) ;
#125 = EDGE_CURVE ( 'NONE', #269, #285, #119, .T. ) ;
#126 = VERTEX_POINT ( 'NONE', #233 ) ;
#127 = CYLINDRICAL_SURFACE ( 'NONE', #148, 15.00000000000000533 ) ;
#128 = EDGE_LOOP ( 'NONE', ( #120, #54, #94, #75 ) ) ;
#129 = DIRECTION ( 'NONE',  ( 0.000000000000000000, 0.000000000000000000, 1.000000000000000000 ) ) ;
#130 = VECTOR ( 'NONE', #187, 1000.000000000000000 ) ;
#131 = PRODUCT_RELATED_PRODUCT_CATEGORY ( 'part', '', ( #146 ) ) ;
#132 = DIRECTION ( 'NONE',  ( 1.000000000000000000, 0.000000000000000000, 0.000000000000000000 ) ) ;
#133 = LINE ( 'NONE', #110, #267 ) ;
#134 = DIRECTION ( 'NONE',  ( -1.000000000000000000, 0.000000000000000000, 0.000000000000000000 ) ) ;
#135 = FACE_OUTER_BOUND ( 'NONE', #143, .T. ) ;
#136 = ADVANCED_FACE ( 'NONE', ( #277 ), #7, .F. ) ;
#137 = CARTESIAN_POINT ( 'NONE',  ( -25.00000000000000000, 0.000000000000000000, 1.600000000000000089 ) ) ;
#138 = CARTESIAN_POINT ( 'NONE',  ( -22.50000000000000355, 3.061616997868381662E-16, 1.600000000000000089 ) ) ;
#139 = CARTESIAN_POINT ( 'NONE',  ( -22.50000000000000000, 9.682458365518542109, 0.000000000000000000 ) ) ;
#140 = ORIENTED_EDGE ( 'NONE', *, *, #276, .F. ) ;
#141 = APPLICATION_CONTEXT ( 'automotive_design' ) ;
#142 = DIRECTION ( 'NONE',  ( 1.000000000000000000, 0.000000000000000000, 0.000000000000000000 ) ) ;
#143 = EDGE_LOOP ( 'NONE', ( #271, #23, #167, #121 ) ) ;
#144 = EDGE_LOOP ( 'NONE', ( #215, #199, #243, #295 ) ) ;
#145 = EDGE_CURVE ( 'NONE', #179, #305, #133, .T. ) ;
#146 = PRODUCT ( '396WD1EM1', '396WD1EM1', '', ( #217 ) ) ;
#147 = SURFACE_STYLE_USAGE ( .BOTH. , #122 ) ;
#148 = AXIS2_PLACEMENT_3D ( 'NONE', #248, #53, #293 ) ;
#149 =( LENGTH_UNIT ( ) NAMED_UNIT ( * ) SI_UNIT ( .MILLI., .METRE. ) );
#150 = VECTOR ( 'NONE', #87, 1000.000000000000000 ) ;
#151 = VERTEX_POINT ( 'NONE', #274 ) ;
#152 = CARTESIAN_POINT ( 'NONE',  ( -3.750000000000000444, 14.52368754827781849, 1.600000000000000089 ) ) ;
#153 = EDGE_CURVE ( 'NONE', #59, #216, #185, .T. ) ;
#154 = APPLICATION_CONTEXT ( 'automotive_design' ) ;
#155 = CARTESIAN_POINT ( 'NONE',  ( -3.750000000000000444, 14.52368754827781849, 0.000000000000000000 ) ) ;
#156 = EDGE_LOOP ( 'NONE', ( #28, #15, #290, #268, #196 ) ) ;
#157 = CIRCLE ( 'NONE', #56, 2.499999999999998668 ) ;
#158 = EDGE_LOOP ( 'NONE', ( #241, #92, #109, #289 ) ) ;
#159 = LINE ( 'NONE', #11, #299 ) ;
#160 = FACE_OUTER_BOUND ( 'NONE', #273, .T. ) ;
#161 = CARTESIAN_POINT ( 'NONE',  ( -3.750000000000000444, -14.52368754827781849, 1.600000000000000089 ) ) ;
#162 = CARTESIAN_POINT ( 'NONE',  ( -25.00000000000000000, 0.000000000000000000, 0.000000000000000000 ) ) ;
#163 = AXIS2_PLACEMENT_3D ( 'NONE', #48, #25, #79 ) ;
#164 = COLOUR_RGB ( '',0.000000000000000000, 0.000000000000000000, 0.000000000000000000 ) ;
#165 =( NAMED_UNIT ( * ) SI_UNIT ( $, .STERADIAN. ) SOLID_ANGLE_UNIT ( ) );
#166 = PRESENTATION_STYLE_ASSIGNMENT (( #278 ) ) ;
#167 = ORIENTED_EDGE ( 'NONE', *, *, #255, .T. ) ;
#168 = ADVANCED_FACE ( 'NONE', ( #60 ), #33, .F. ) ;
#169 =( NAMED_UNIT ( * ) PLANE_ANGLE_UNIT ( ) SI_UNIT ( $, .RADIAN. ) );
#170 = VERTEX_POINT ( 'NONE', #62 ) ;
#171 = AXIS2_PLACEMENT_3D ( 'NONE', #82, #183, #272 ) ;
#172 = VERTEX_POINT ( 'NONE', #161 ) ;
#173 = EDGE_CURVE ( 'NONE', #309, #170, #24, .T. ) ;
#174 = PRODUCT_DEFINITION_SHAPE ( 'NONE', 'NONE',  #76 ) ;
#175 = FILL_AREA_STYLE ('',( #195 ) ) ;
#176 = CIRCLE ( 'NONE', #184, 15.00000000000000533 ) ;
#177 = ORIENTED_EDGE ( 'NONE', *, *, #45, .F. ) ;
#178 = EDGE_CURVE ( 'NONE', #218, #151, #41, .T. ) ;
#179 = VERTEX_POINT ( 'NONE', #214 ) ;
#180 = AXIS2_PLACEMENT_3D ( 'NONE', #137, #32, #304 ) ;
#181 = CARTESIAN_POINT ( 'NONE',  ( -20.00000000000000000, 0.000000000000000000, 1.600000000000000089 ) ) ;
#182 = CARTESIAN_POINT ( 'NONE',  ( -3.750000000000000444, -14.52368754827781849, 1.600000000000000089 ) ) ;
#183 = DIRECTION ( 'NONE',  ( -0.000000000000000000, -0.000000000000000000, -1.000000000000000000 ) ) ;
#184 = AXIS2_PLACEMENT_3D ( 'NONE', #188, #14, #189 ) ;
#185 = LINE ( 'NONE', #250, #130 ) ;
#186 = DIRECTION ( 'NONE',  ( -1.000000000000000000, 0.000000000000000000, 0.000000000000000000 ) ) ;
#187 = DIRECTION ( 'NONE',  ( -0.000000000000000000, -0.000000000000000000, -1.000000000000000000 ) ) ;
#188 = CARTESIAN_POINT ( 'NONE',  ( 0.000000000000000000, 0.000000000000000000, 0.000000000000000000 ) ) ;
#189 = DIRECTION ( 'NONE',  ( 1.000000000000000000, 0.000000000000000000, 0.000000000000000000 ) ) ;
#190 = AXIS2_PLACEMENT_3D ( 'NONE', #265, #129, #200 ) ;
#191 = CARTESIAN_POINT ( 'NONE',  ( -22.50000000000000000, 9.682458365518542109, 1.600000000000000089 ) ) ;
#192 = EDGE_LOOP ( 'NONE', ( #205, #18, #81, #286 ) ) ;
#193 = FILL_AREA_STYLE ('',( #117 ) ) ;
#194 = ORIENTED_EDGE ( 'NONE', *, *, #173, .T. ) ;
#195 = FILL_AREA_STYLE_COLOUR ( '', #164 ) ;
#196 = ORIENTED_EDGE ( 'NONE', *, *, #114, .T. ) ;
#197 = VECTOR ( 'NONE', #211, 1000.000000000000000 ) ;
#198 = APPLICATION_PROTOCOL_DEFINITION ( 'draft international standard', 'automotive_design', 1998, #154 ) ;
#199 = ORIENTED_EDGE ( 'NONE', *, *, #145, .T. ) ;
#200 = DIRECTION ( 'NONE',  ( 1.000000000000000000, 0.000000000000000000, 0.000000000000000000 ) ) ;
#201 = ADVANCED_FACE ( 'NONE', ( #135 ), #17, .T. ) ;
#202 = FACE_OUTER_BOUND ( 'NONE', #158, .T. ) ;
#203 = AXIS2_PLACEMENT_3D ( 'NONE', #115, #297, #236 ) ;
#204 = PLANE ( 'NONE',  #71 ) ;
#205 = ORIENTED_EDGE ( 'NONE', *, *, #178, .T. ) ;
#206 = EDGE_LOOP ( 'NONE', ( #68, #257 ) ) ;
#207 = LINE ( 'NONE', #210, #261 ) ;
#208 = CARTESIAN_POINT ( 'NONE',  ( -20.00000000000000000, 0.000000000000000000, 1.600000000000000089 ) ) ;
#209 = STYLED_ITEM ( 'NONE', ( #166 ), #283 ) ;
#210 = CARTESIAN_POINT ( 'NONE',  ( -27.50000000000000000, 0.000000000000000000, 1.600000000000000089 ) ) ;
#211 = DIRECTION ( 'NONE',  ( -0.000000000000000000, -0.000000000000000000, -1.000000000000000000 ) ) ;
#212 = DIRECTION ( 'NONE',  ( 0.000000000000000000, 0.000000000000000000, 1.000000000000000000 ) ) ;
#213 = DIRECTION ( 'NONE',  ( -0.000000000000000000, -0.000000000000000000, -1.000000000000000000 ) ) ;
#214 = CARTESIAN_POINT ( 'NONE',  ( -30.00000000000000000, 0.000000000000000000, 1.600000000000000089 ) ) ;
#215 = ORIENTED_EDGE ( 'NONE', *, *, #40, .F. ) ;
#216 = VERTEX_POINT ( 'NONE', #91 ) ;
#217 = PRODUCT_CONTEXT ( 'NONE', #154, 'mechanical' ) ;
#218 = VERTEX_POINT ( 'NONE', #65 ) ;
#219 =( GEOMETRIC_REPRESENTATION_CONTEXT ( 3 ) GLOBAL_UNCERTAINTY_ASSIGNED_CONTEXT ( ( #118 ) ) GLOBAL_UNIT_ASSIGNED_CONTEXT ( ( #284, #169, #165 ) ) REPRESENTATION_CONTEXT ( 'NONE', 'WORKASPACE' ) );
#220 = AXIS2_PLACEMENT_3D ( 'NONE', #100, #98, #221 ) ;
#221 = DIRECTION ( 'NONE',  ( 1.000000000000000000, 0.000000000000000000, 0.000000000000000000 ) ) ;
#222 = PRESENTATION_STYLE_ASSIGNMENT (( #147 ) ) ;
#223 = FACE_OUTER_BOUND ( 'NONE', #156, .T. ) ;
#224 = AXIS2_PLACEMENT_3D ( 'NONE', #30, #5, #132 ) ;
#225 = PRODUCT_DEFINITION_FORMATION_WITH_SPECIFIED_SOURCE ( 'ANY', '', #146, .NOT_KNOWN. ) ;
#226 = PLANE ( 'NONE',  #123 ) ;
#227 = EDGE_CURVE ( 'NONE', #170, #285, #88, .T. ) ;
#228 = DIRECTION ( 'NONE',  ( 0.000000000000000000, 0.000000000000000000, 1.000000000000000000 ) ) ;
#229 = CARTESIAN_POINT ( 'NONE',  ( -3.750000000000000444, 14.52368754827781849, 1.600000000000000089 ) ) ;
#230 = AXIS2_PLACEMENT_3D ( 'NONE', #35, #253, #134 ) ;
#231 = CYLINDRICAL_SURFACE ( 'NONE', #171, 9.999999999999998224 ) ;
#232 = ORIENTED_EDGE ( 'NONE', *, *, #108, .T. ) ;
#233 = CARTESIAN_POINT ( 'NONE',  ( -22.50000000000000000, 9.682458365518542109, 1.600000000000000089 ) ) ;
#234 = CARTESIAN_POINT ( 'NONE',  ( -25.00000000000000000, 0.000000000000000000, 0.000000000000000000 ) ) ;
#235 = CARTESIAN_POINT ( 'NONE',  ( 0.000000000000000000, 0.000000000000000000, 0.000000000000000000 ) ) ;
#236 = DIRECTION ( 'NONE',  ( -0.9682458365518541443, 0.2500000000000002220, 0.000000000000000000 ) ) ;
#237 = DIRECTION ( 'NONE',  ( 0.000000000000000000, 0.000000000000000000, 1.000000000000000000 ) ) ;
#238 = ORIENTED_EDGE ( 'NONE', *, *, #227, .F. ) ;
#239 = UNCERTAINTY_MEASURE_WITH_UNIT (LENGTH_MEASURE( 1.000000000000000082E-05 ), #263, 'distance_accuracy_value', 'NONE');
#240 = CARTESIAN_POINT ( 'NONE',  ( -20.00000000000000000, 0.000000000000000000, 0.000000000000000000 ) ) ;
#241 = ORIENTED_EDGE ( 'NONE', *, *, #86, .T. ) ;
#242 = CYLINDRICAL_SURFACE ( 'NONE', #78, 2.499999999999998668 ) ;
#243 = ORIENTED_EDGE ( 'NONE', *, *, #45, .T. ) ;
#244 = CIRCLE ( 'NONE', #16, 10.00000000000000000 ) ;
#245 =( NAMED_UNIT ( * ) PLANE_ANGLE_UNIT ( ) SI_UNIT ( $, .RADIAN. ) );
#246 = LINE ( 'NONE', #152, #83 ) ;
#247 = FACE_BOUND ( 'NONE', #6, .T. ) ;
#248 = CARTESIAN_POINT ( 'NONE',  ( 0.000000000000000000, 0.000000000000000000, 1.600000000000000089 ) ) ;
#249 = DIRECTION ( 'NONE',  ( -0.9682458365518541443, -0.2500000000000002220, 0.000000000000000000 ) ) ;
#250 = CARTESIAN_POINT ( 'NONE',  ( -3.750000000000000444, 14.52368754827781849, 1.600000000000000089 ) ) ;
#251 = DIRECTION ( 'NONE',  ( -0.000000000000000000, -0.000000000000000000, -1.000000000000000000 ) ) ;
#252 = FACE_BOUND ( 'NONE', #206, .T. ) ;
#253 = DIRECTION ( 'NONE',  ( -0.000000000000000000, -0.000000000000000000, -1.000000000000000000 ) ) ;
#254 = DIRECTION ( 'NONE',  ( 0.000000000000000000, 0.000000000000000000, 1.000000000000000000 ) ) ;
#255 = EDGE_CURVE ( 'NONE', #126, #260, #298, .T. ) ;
#256 = CIRCLE ( 'NONE', #190, 15.00000000000000533 ) ;
#257 = ORIENTED_EDGE ( 'NONE', *, *, #313, .T. ) ;
#258 = EDGE_CURVE ( 'NONE', #170, #309, #47, .T. ) ;
#259 = DIRECTION ( 'NONE',  ( -0.000000000000000000, -0.000000000000000000, -1.000000000000000000 ) ) ;
#260 = VERTEX_POINT ( 'NONE', #139 ) ;
#261 = VECTOR ( 'NONE', #300, 1000.000000000000000 ) ;
#262 = ORIENTED_EDGE ( 'NONE', *, *, #258, .T. ) ;
#263 =( LENGTH_UNIT ( ) NAMED_UNIT ( * ) SI_UNIT ( .MILLI., .METRE. ) );
#264 = EDGE_CURVE ( 'NONE', #260, #305, #244, .T. ) ;
#265 = CARTESIAN_POINT ( 'NONE',  ( 0.000000000000000000, 0.000000000000000000, 1.600000000000000089 ) ) ;
#266 = ORIENTED_EDGE ( 'NONE', *, *, #258, .F. ) ;
#267 = VECTOR ( 'NONE', #251, 1000.000000000000000 ) ;
#268 = ORIENTED_EDGE ( 'NONE', *, *, #40, .T. ) ;
#269 = VERTEX_POINT ( 'NONE', #281 ) ;
#270 = LINE ( 'NONE', #155, #292 ) ;
#271 = ORIENTED_EDGE ( 'NONE', *, *, #145, .F. ) ;
#272 = DIRECTION ( 'NONE',  ( -1.000000000000000000, 0.000000000000000000, 0.000000000000000000 ) ) ;
#273 = EDGE_LOOP ( 'NONE', ( #140, #70, #177, #107, #282 ) ) ;
#274 = CARTESIAN_POINT ( 'NONE',  ( -3.750000000000000444, -14.52368754827781849, 0.000000000000000000 ) ) ;
#275 = SURFACE_SIDE_STYLE ('',( #12 ) ) ;
#276 = EDGE_CURVE ( 'NONE', #151, #216, #176, .T. ) ;
#277 = FACE_OUTER_BOUND ( 'NONE', #192, .T. ) ;
#278 = SURFACE_STYLE_USAGE ( .BOTH. , #275 ) ;
#279 = CIRCLE ( 'NONE', #163, 10.00000000000000000 ) ;
#280 = UNCERTAINTY_MEASURE_WITH_UNIT (LENGTH_MEASURE( 1.000000000000000082E-05 ), #149, 'distance_accuracy_value', 'NONE');
#281 = CARTESIAN_POINT ( 'NONE',  ( -27.50000000000000000, 0.000000000000000000, 0.000000000000000000 ) ) ;
#282 = ORIENTED_EDGE ( 'NONE', *, *, #86, .F. ) ;
#283 = MANIFOLD_SOLID_BREP ( 'Extrusion1', #93 ) ;
#284 =( LENGTH_UNIT ( ) NAMED_UNIT ( * ) SI_UNIT ( .MILLI., .METRE. ) );
#285 = VERTEX_POINT ( 'NONE', #63 ) ;
#286 = ORIENTED_EDGE ( 'NONE', *, *, #111, .T. ) ;
#287 = CIRCLE ( 'NONE', #314, 10.00000000000000000 ) ;
#288 = SURFACE_STYLE_FILL_AREA ( #175 ) ;
#289 = ORIENTED_EDGE ( 'NONE', *, *, #153, .T. ) ;
#290 = ORIENTED_EDGE ( 'NONE', *, *, #99, .T. ) ;
#291 = DIRECTION ( 'NONE',  ( 1.000000000000000000, 0.000000000000000000, 0.000000000000000000 ) ) ;
#292 = VECTOR ( 'NONE', #249, 1000.000000000000000 ) ;
#293 = DIRECTION ( 'NONE',  ( -1.000000000000000000, 0.000000000000000000, 0.000000000000000000 ) ) ;
#294 = ADVANCED_FACE ( 'NONE', ( #13 ), #242, .F. ) ;
#295 = ORIENTED_EDGE ( 'NONE', *, *, #111, .F. ) ;
#296 = FACE_OUTER_BOUND ( 'NONE', #144, .T. ) ;
#297 = DIRECTION ( 'NONE',  ( 0.2500000000000002220, 0.9682458365518541443, -0.000000000000000000 ) ) ;
#298 = LINE ( 'NONE', #191, #197 ) ;
#299 = VECTOR ( 'NONE', #8, 1000.000000000000000 ) ;
#300 = DIRECTION ( 'NONE',  ( -0.000000000000000000, -0.000000000000000000, -1.000000000000000000 ) ) ;
#301 = DIRECTION ( 'NONE',  ( 0.9682458365518541443, -0.2500000000000002220, -0.000000000000000000 ) ) ;
#302 = DIRECTION ( 'NONE',  ( 1.000000000000000000, 0.000000000000000000, 0.000000000000000000 ) ) ;
#303 = DIRECTION ( 'NONE',  ( -0.000000000000000000, -0.000000000000000000, -1.000000000000000000 ) ) ;
#304 = DIRECTION ( 'NONE',  ( 1.000000000000000000, 0.000000000000000000, 0.000000000000000000 ) ) ;
#305 = VERTEX_POINT ( 'NONE', #39 ) ;
#306 = VECTOR ( 'NONE', #301, 1000.000000000000000 ) ;
#307 = EDGE_LOOP ( 'NONE', ( #194, #44, #57, #96 ) ) ;
#308 = APPLICATION_PROTOCOL_DEFINITION ( 'draft international standard', 'automotive_design', 1998, #141 ) ;
#309 = VERTEX_POINT ( 'NONE', #61 ) ;
#310 = SHAPE_DEFINITION_REPRESENTATION ( #174, #46 ) ;
#311 = ADVANCED_FACE ( 'NONE', ( #160, #252 ), #34, .F. ) ;
#312 = CIRCLE ( 'NONE', #224, 10.00000000000000000 ) ;
#313 = EDGE_CURVE ( 'NONE', #285, #269, #157, .T. ) ;
#314 = AXIS2_PLACEMENT_3D ( 'NONE', #181, #106, #291 ) ;
#315 = DIRECTION ( 'NONE',  ( 1.000000000000000000, 0.000000000000000000, -0.000000000000000000 ) ) ;
ENDSEC;
END-ISO-10303-21;
